  0
SECTION
  2
HEADER
  9
$ACADVER
  1
AC1015
  9
$ACADMAINTVER
 70
     6
  9
$DWGCODEPAGE
  3
ANSI_1254
  9
$INSBASE
 10
0.0
 20
0.0
 30
0.0
  9
$EXTMIN
 10
0.0
 20
0.0
 30
0.0
  9
$EXTMAX
 10
279.4
 20
215.9
 30
0.0
  9
$LIMMIN
 10
0.0
 20
0.0
  9
$LIMMAX
 10
279.4
 20
215.9
  9
$ORTHOMODE
 70
     0
  9
$REGENMODE
 70
     1
  9
$FILLMODE
 70
     1
  9
$QTEXTMODE
 70
     0
  9
$MIRRTEXT
 70
     1
  9
$LTSCALE
 40
1.0
  9
$ATTMODE
 70
     1
  9
$TEXTSIZE
 40
3.5
  9
$TRACEWID
 40
1.0
  9
$TEXTSTYLE
  7
Standard
  9
$CLAYER
  8
0
  9
$CELTYPE
  6
ByLayer
  9
$CECOLOR
 62
   256
  9
$CELTSCALE
 40
1.0
  9
$DISPSILH
 70
     0
  9
$DIMSCALE
 40
1.0
  9
$DIMASZ
 40
3.5
  9
$DIMEXO
 40
1.0
  9
$DIMDLI
 40
3.75
  9
$DIMRND
 40
0.0
  9
$DIMDLE
 40
0.0
  9
$DIMEXE
 40
1.0
  9
$DIMTP
 40
0.0
  9
$DIMTM
 40
0.0
  9
$DIMTXT
 40
3.5
  9
$DIMCEN
 40
2.5
  9
$DIMTSZ
 40
0.0
  9
$DIMTOL
 70
     0
  9
$DIMLIM
 70
     0
  9
$DIMTIH
 70
     1
  9
$DIMTOH
 70
     1
  9
$DIMSE1
 70
     0
  9
$DIMSE2
 70
     0
  9
$DIMTAD
 70
     1
  9
$DIMZIN
 70
     0
  9
$DIMBLK
  1

  9
$DIMASO
 70
     1
  9
$DIMSHO
 70
     1
  9
$DIMPOST
  1

  9
$DIMAPOST
  1

  9
$DIMALT
 70
     0
  9
$DIMALTD
 70
     3
  9
$DIMALTF
 40
0.0393700787
  9
$DIMLFAC
 40
1.0
  9
$DIMTOFL
 70
     1
  9
$DIMTVP
 40
0.0
  9
$DIMTIX
 70
     0
  9
$DIMSOXD
 70
     0
  9
$DIMSAH
 70
     0
  9
$DIMBLK1
  1

  9
$DIMBLK2
  1

  9
$DIMSTYLE
  2
ISO-25
  9
$DIMCLRD
 70
     0
  9
$DIMCLRE
 70
     0
  9
$DIMCLRT
 70
     0
  9
$DIMTFAC
 40
1.0
  9
$DIMGAP
 40
1.524
  9
$DIMJUST
 70
     0
  9
$DIMSD1
 70
     0
  9
$DIMSD2
 70
     0
  9
$DIMTOLJ
 70
     0
  9
$DIMTZIN
 70
     0
  9
$DIMALTZ
 70
     0
  9
$DIMALTTZ
 70
     0
  9
$DIMUPT
 70
     0
  9
$DIMDEC
 70
     2
  9
$DIMTDEC
 70
     2
  9
$DIMALTU
 70
     2
  9
$DIMALTTD
 70
     3
  9
$DIMTXSTY
  7
Standard
  9
$DIMAUNIT
 70
     0
  9
$DIMADEC
 70
     2
  9
$DIMALTRND
 40
0.0
  9
$DIMAZIN
 70
     0
  9
$DIMDSEP
 70
    44
  9
$DIMATFIT
 70
     3
  9
$DIMFRAC
 70
     0
  9
$DIMLDRBLK
  1

  9
$DIMLUNIT
 70
     2
  9
$DIMLWD
 70
    -2
  9
$DIMLWE
 70
    -2
  9
$DIMTMOVE
 70
     0
  9
$LUNITS
 70
     2
  9
$LUPREC
 70
     2
  9
$SKETCHINC
 40
1.0
  9
$FILLETRAD
 40
10.0
  9
$AUNITS
 70
     0
  9
$AUPREC
 70
     2
  9
$MENU
  1
.
  9
$ELEVATION
 40
0.0
  9
$PELEVATION
 40
0.0
  9
$THICKNESS
 40
0.0
  9
$LIMCHECK
 70
     0
  9
$CHAMFERA
 40
0.0
  9
$CHAMFERB
 40
0.0
  9
$CHAMFERC
 40
0.0
  9
$CHAMFERD
 40
0.0
  9
$SKPOLY
 70
     0
  9
$TDCREATE
 40
2460608.530350151
  9
$TDUCREATE
 40
2460608.405350151
  9
$TDUPDATE
 40
2460608.530350232
  9
$TDUUPDATE
 40
2460608.405350232
  9
$TDINDWG
 40
0.0000000116
  9
$TDUSRTIMER
 40
0.0000000116
  9
$USRTIMER
 70
     1
  9
$ANGBASE
 50
0.0
  9
$ANGDIR
 70
     0
  9
$PDMODE
 70
     0
  9
$PDSIZE
 40
-1.0
  9
$PLINEWID
 40
0.0
  9
$SPLFRAME
 70
     0
  9
$SPLINETYPE
 70
     6
  9
$SPLINESEGS
 70
     8
  9
$HANDSEED
  5
D2
  9
$SURFTAB1
 70
     6
  9
$SURFTAB2
 70
     6
  9
$SURFTYPE
 70
     6
  9
$SURFU
 70
     6
  9
$SURFV
 70
     6
  9
$UCSBASE
  2

  9
$UCSNAME
  2

  9
$UCSORG
 10
0.0
 20
0.0
 30
0.0
  9
$UCSXDIR
 10
1.0
 20
0.0
 30
0.0
  9
$UCSYDIR
 10
0.0
 20
1.0
 30
0.0
  9
$UCSORTHOREF
  2

  9
$UCSORTHOVIEW
 70
     0
  9
$UCSORGTOP
 10
0.0
 20
0.0
 30
0.0
  9
$UCSORGBOTTOM
 10
0.0
 20
0.0
 30
0.0
  9
$UCSORGLEFT
 10
0.0
 20
0.0
 30
0.0
  9
$UCSORGRIGHT
 10
0.0
 20
0.0
 30
0.0
  9
$UCSORGFRONT
 10
0.0
 20
0.0
 30
0.0
  9
$UCSORGBACK
 10
0.0
 20
0.0
 30
0.0
  9
$PUCSBASE
  2

  9
$PUCSNAME
  2

  9
$PUCSORG
 10
0.0
 20
0.0
 30
0.0
  9
$PUCSXDIR
 10
1.0
 20
0.0
 30
0.0
  9
$PUCSYDIR
 10
0.0
 20
1.0
 30
0.0
  9
$PUCSORTHOREF
  2

  9
$PUCSORTHOVIEW
 70
     0
  9
$PUCSORGTOP
 10
0.0
 20
0.0
 30
0.0
  9
$PUCSORGBOTTOM
 10
0.0
 20
0.0
 30
0.0
  9
$PUCSORGLEFT
 10
0.0
 20
0.0
 30
0.0
  9
$PUCSORGRIGHT
 10
0.0
 20
0.0
 30
0.0
  9
$PUCSORGFRONT
 10
0.0
 20
0.0
 30
0.0
  9
$PUCSORGBACK
 10
0.0
 20
0.0
 30
0.0
  9
$USERI1
 70
     0
  9
$USERI2
 70
     0
  9
$USERI3
 70
     0
  9
$USERI4
 70
     0
  9
$USERI5
 70
     0
  9
$USERR1
 40
0.0
  9
$USERR2
 40
0.0
  9
$USERR3
 40
0.0
  9
$USERR4
 40
0.0
  9
$USERR5
 40
0.0
  9
$WORLDVIEW
 70
     1
  9
$SHADEDGE
 70
     3
  9
$SHADEDIF
 70
    70
  9
$TILEMODE
 70
     1
  9
$MAXACTVP
 70
    64
  9
$PINSBASE
 10
0.0
 20
0.0
 30
0.0
  9
$PLIMCHECK
 70
     0
  9
$PEXTMIN
 10
1.0000000000E+20
 20
1.0000000000E+20
 30
1.0000000000E+20
  9
$PEXTMAX
 10
-1.0000000000E+20
 20
-1.0000000000E+20
 30
-1.0000000000E+20
  9
$PLIMMIN
 10
0.0
 20
0.0
  9
$PLIMMAX
 10
420.0
 20
297.0
  9
$UNITMODE
 70
     0
  9
$VISRETAIN
 70
     1
  9
$PLINEGEN
 70
     0
  9
$PSLTSCALE
 70
     1
  9
$TREEDEPTH
 70
  3020
  9
$CMLSTYLE
  2
Standard
  9
$CMLJUST
 70
     0
  9
$CMLSCALE
 40
20.0
  9
$PROXYGRAPHICS
 70
     1
  9
$MEASUREMENT
 70
     1
  9
$CELWEIGHT
370
    -1
  9
$ENDCAPS
280
     0
  9
$JOINSTYLE
280
     0
  9
$LWDISPLAY
290
     1
  9
$INSUNITS
 70
     4
  9
$HYPERLINKBASE
  1

  9
$STYLESHEET
  1

  9
$XEDIT
290
     1
  9
$CEPSNTYPE
380
     0
  9
$PSTYLEMODE
290
     1
  9
$FINGERPRINTGUID
  2
{34350774-c820-437e-8183-c7f6b62ba6c9}
  9
$VERSIONGUID
  2
{FAEB1C32-E019-11D5-929B-00C0DF256EC4}
  9
$EXTNAMES
290
     1
  9
$PSVPSCALE
 40
0.0
  9
$OLESTARTUP
290
     0
  0
ENDSEC
  0
SECTION
  2
CLASSES
  0
CLASS
  1
ACDBDICTIONARYWDFLT
  2
AcDbDictionaryWithDefault
  3
ObjectDBX Classes
 90
        0
280
     0
281
     0
  0
CLASS
  1
VISUALSTYLE
  2
AcDbVisualStyle
  3
ObjectDBX Classes
 90
     4095
280
     0
281
     0
  0
CLASS
  1
MATERIAL
  2
AcDbMaterial
  3
ObjectDBX Classes
 90
     1153
280
     0
281
     0
  0
CLASS
  1
SCALE
  2
AcDbScale
  3
ObjectDBX Classes
 90
     1153
280
     0
281
     0
  0
CLASS
  1
TABLESTYLE
  2
AcDbTableStyle
  3
ObjectDBX Classes
 90
     4095
280
     0
281
     0
  0
CLASS
  1
MLEADERSTYLE
  2
AcDbMLeaderStyle
  3
ACDB_MLEADERSTYLE_CLASS
 90
     4095
280
     0
281
     0
  0
CLASS
  1
SUN
  2
AcDbSun
  3
SCENEOE
 90
     1153
280
     0
281
     0
  0
CLASS
  1
ACDBPLACEHOLDER
  2
AcDbPlaceHolder
  3
ObjectDBX Classes
 90
        0
280
     0
281
     0
  0
CLASS
  1
LAYOUT
  2
AcDbLayout
  3
ObjectDBX Classes
 90
        0
280
     0
281
     0
  0
ENDSEC
  0
SECTION
  2
TABLES
  0
TABLE
  2
VPORT
  5
8
330
0
100
AcDbSymbolTable
 70
     1
  0
VPORT
  5
29
330
8
100
AcDbSymbolTableRecord
100
AcDbViewportTableRecord
  2
*Active
 70
     0
 10
0.0
 20
0.0
 11
1.0
 21
1.0
 12
139.7
 22
107.95
 13
0.0
 23
0.0
 14
10.0
 24
10.0
 15
10.0
 25
10.0
 16
0.0
 26
0.0
 36
1.0
 17
0.0
 27
0.0
 37
0.0
 40
215.9
 41
1.2941176471
 42
50.0
 43
0.0
 44
0.0
 50
0.0
 51
0.0
 71
     0
 72
  2000
 73
     1
 74
     3
 75
     0
 76
     0
 77
     0
 78
     0
281
     0
 65
     1
110
0.0
120
0.0
130
0.0
111
1.0
121
0.0
131
0.0
112
0.0
122
1.0
132
0.0
 79
     0
146
0.0
  0
ENDTAB
  0
TABLE
  2
LTYPE
  5
5
330
0
100
AcDbSymbolTable
 70
     6
  0
LTYPE
  5
14
330
5
100
AcDbSymbolTableRecord
100
AcDbLinetypeTableRecord
  2
ByBlock
 70
     0
  3

 72
    65
 73
     0
 40
0.0
  0
LTYPE
  5
15
330
5
100
AcDbSymbolTableRecord
100
AcDbLinetypeTableRecord
  2
ByLayer
 70
     0
  3

 72
    65
 73
     0
 40
0.0
  0
LTYPE
  5
16
330
5
100
AcDbSymbolTableRecord
100
AcDbLinetypeTableRecord
  2
Continuous
 70
     0
  3
Solid line
 72
    65
 73
     0
 40
0.0
  0
LTYPE
  5
6E
330
5
100
AcDbSymbolTableRecord
100
AcDbLinetypeTableRecord
  2
HIDDEN
 70
     0
  3
Hidden __ __ __ __ __ __ __ __ __ __ __ __ __ __
 72
    65
 73
     2
 40
1.905
 49
1.27
 74
     0
 49
-0.635
 74
     0
  0
LTYPE
  5
6F
330
5
100
AcDbSymbolTableRecord
100
AcDbLinetypeTableRecord
  2
PHANTOM
 70
     0
  3
Phantom ______  __  __  ______  __  __  ______
 72
    65
 73
     6
 40
12.7
 49
6.35
 74
     0
 49
-1.27
 74
     0
 49
1.27
 74
     0
 49
-1.27
 74
     0
 49
1.27
 74
     0
 49
-1.27
 74
     0
  0
LTYPE
  5
70
330
5
100
AcDbSymbolTableRecord
100
AcDbLinetypeTableRecord
  2
CENTER
 70
     0
  3
Center ____ _ ____ _ ____ _ ____ _ ____ _ ____
 72
    65
 73
     4
 40
10.16
 49
6.35
 74
     0
 49
-1.27
 74
     0
 49
1.27
 74
     0
 49
-1.27
 74
     0
  0
LTYPE
  5
71
330
5
100
AcDbSymbolTableRecord
100
AcDbLinetypeTableRecord
  2
CENTERX2
 70
     0
  3
Center (2x) ________  __  ________  __  _____
 72
    65
 73
     4
 40
20.32
 49
12.7
 74
     0
 49
-2.54
 74
     0
 49
2.54
 74
     0
 49
-2.54
 74
     0
  0
LTYPE
  5
72
330
5
100
AcDbSymbolTableRecord
100
AcDbLinetypeTableRecord
  2
DOT2
 70
     0
  3
Dot (.5x) ........................................
 72
    65
 73
     2
 40
0.635
 49
0.0
 74
     0
 49
-0.635
 74
     0
  0
ENDTAB
  0
TABLE
  2
LAYER
  5
2
330
0
100
AcDbSymbolTable
 70
    17
  0
LAYER
  5
10
330
2
100
AcDbSymbolTableRecord
100
AcDbLayerTableRecord
  2
0
 70
     0
 62
     7
  6
Continuous
370
    -3
390
F
  0
LAYER
  5
73
330
2
100
AcDbSymbolTableRecord
100
AcDbLayerTableRecord
  2
FORMAT
 70
     0
 62
     7
  6
Continuous
370
    -3
390
F
  0
LAYER
  5
74
330
2
100
AcDbSymbolTableRecord
100
AcDbLayerTableRecord
  2
YARDIMCI_GEOMETRI
 70
     0
 62
    -6
  6
Continuous
290
     0
370
    -3
390
F
  0
LAYER
  5
75
330
2
100
AcDbSymbolTableRecord
100
AcDbLayerTableRecord
  2
SAYFA_CERCEVESI
 70
     0
 62
     7
  6
Continuous
370
    25
390
F
  0
LAYER
  5
76
330
2
100
AcDbSymbolTableRecord
100
AcDbLayerTableRecord
  2
ANTET
 70
     0
 62
     7
  6
Continuous
370
    -3
390
F
  0
LAYER
  5
77
330
2
100
AcDbSymbolTableRecord
100
AcDbLayerTableRecord
  2
OLCU
 70
     0
 62
   150
  6
Continuous
370
    -3
390
F
  0
LAYER
  5
78
330
2
100
AcDbSymbolTableRecord
100
AcDbLayerTableRecord
  2
METIN
 70
     0
 62
    96
  6
Continuous
370
    -3
390
F
  0
LAYER
  5
79
330
2
100
AcDbSymbolTableRecord
100
AcDbLayerTableRecord
  2
BALON
 70
     0
 62
     5
  6
Continuous
370
    -3
390
F
  0
LAYER
  5
7A
330
2
100
AcDbSymbolTableRecord
100
AcDbLayerTableRecord
  2
VURGU
 70
     0
 62
     7
  6
Continuous
370
    -3
390
F
  0
LAYER
  5
7B
330
2
100
AcDbSymbolTableRecord
100
AcDbLayerTableRecord
  2
SILIK
 70
     0
 62
     7
  6
Continuous
370
    -3
390
F
  0
LAYER
  5
7C
330
2
100
AcDbSymbolTableRecord
100
AcDbLayerTableRecord
  2
MODEL
 70
     0
 62
     7
  6
Continuous
370
    -3
390
F
  0
LAYER
  5
7D
330
2
100
AcDbSymbolTableRecord
100
AcDbLayerTableRecord
  2
DETAYLANDıRMA
 70
     0
 62
   190
  6
Continuous
370
    -3
390
F
  0
LAYER
  5
7E
330
2
100
AcDbSymbolTableRecord
100
AcDbLayerTableRecord
  2
TOLERANS
 70
     0
 62
   230
  6
Continuous
370
    -3
390
F
  0
LAYER
  5
7F
330
2
100
AcDbSymbolTableRecord
100
AcDbLayerTableRecord
  2
MERKEZ_CIZGILERI
 70
     0
 62
    30
  6
Continuous
370
    -3
390
F
  0
LAYER
  5
80
330
2
100
AcDbSymbolTableRecord
100
AcDbLayerTableRecord
  2
KESIT-DETAY_CIZGILERI
 70
     0
 62
     7
  6
Continuous
370
    -3
390
F
  0
LAYER
  5
81
330
2
100
AcDbSymbolTableRecord
100
AcDbLayerTableRecord
  2
\U+041E\U+0421\U+0415\U+0412\U+042B\U+0415
 70
     0
 62
     7
  6
Continuous
370
    -3
390
F
  0
LAYER
  5
82
330
2
100
AcDbSymbolTableRecord
100
AcDbLayerTableRecord
  2
\U+0412\U+041E\U+0414\U+042F\U+041D\U+042B\U+0415_\U+0417\U+041D\U+0410\U+041A\U+0418
 70
     0
 62
    11
  6
Continuous
370
    -3
390
F
  0
ENDTAB
  0
TABLE
  2
STYLE
  5
3
330
0
100
AcDbSymbolTable
 70
     1
  0
STYLE
  5
11
330
3
100
AcDbSymbolTableRecord
100
AcDbTextStyleTableRecord
  2
Standard
 70
     0
 40
0.0
 41
1.0
 50
0.0
 71
     0
 42
3.5
  3
txt
  4

  0
ENDTAB
  0
TABLE
  2
VIEW
  5
6
330
0
100
AcDbSymbolTable
 70
     0
  0
ENDTAB
  0
TABLE
  2
UCS
  5
7
330
0
100
AcDbSymbolTable
 70
     0
  0
ENDTAB
  0
TABLE
  2
APPID
  5
9
330
0
100
AcDbSymbolTable
 70
     1
  0
APPID
  5
12
330
9
100
AcDbSymbolTableRecord
100
AcDbRegAppTableRecord
  2
ACAD
 70
     0
  0
ENDTAB
  0
TABLE
  2
DIMSTYLE
  5
A
330
0
100
AcDbSymbolTable
 70
     1
100
AcDbDimStyleTable
  0
DIMSTYLE
105
27
330
A
100
AcDbSymbolTableRecord
100
AcDbDimStyleTableRecord
  2
ISO-25
 70
     0
 41
2.5
 42
0.625
 43
3.75
 44
1.25
 73
     0
 74
     0
 77
     1
 78
     8
140
2.5
141
2.5
143
0.0393700787
147
0.625
171
     3
172
     1
178
     0
271
     2
272
     2
274
     3
278
    44
283
     0
284
     8
340
11
  0
ENDTAB
  0
TABLE
  2
BLOCK_RECORD
  5
1
330
0
100
AcDbSymbolTable
 70
     3
  0
BLOCK_RECORD
  5
1F
330
1
100
AcDbSymbolTableRecord
100
AcDbBlockTableRecord
  2
*Model_Space
340
22
  0
BLOCK_RECORD
  5
1B
330
1
100
AcDbSymbolTableRecord
100
AcDbBlockTableRecord
  2
*Paper_Space
340
1E
  0
BLOCK_RECORD
  5
23
330
1
100
AcDbSymbolTableRecord
100
AcDbBlockTableRecord
  2
*Paper_Space0
340
26
  0
BLOCK_RECORD
  5
88
330
1
100
AcDbSymbolTableRecord
100
AcDbBlockTableRecord
  2
SW_CENTERMARKSYMBOL_0
340
0
102
{BLKREFS
331
93
102
}
  0
BLOCK_RECORD
  5
9E
330
1
100
AcDbSymbolTableRecord
100
AcDbBlockTableRecord
  2
SW_CENTERMARKSYMBOL_1
340
0
102
{BLKREFS
331
A9
102
}
  0
ENDTAB
  0
ENDSEC
  0
SECTION
  2
BLOCKS
  0
BLOCK
  5
20
330
1F
100
AcDbEntity
  8
0
100
AcDbBlockBegin
  2
*Model_Space
 70
     0
 10
0.0
 20
0.0
 30
0.0
  3
*Model_Space
  1

  0
ENDBLK
  5
21
330
1F
100
AcDbEntity
  8
0
100
AcDbBlockEnd
  0
BLOCK
  5
1C
330
1B
100
AcDbEntity
 67
     1
  8
0
100
AcDbBlockBegin
  2
*Paper_Space
 70
     0
 10
0.0
 20
0.0
 30
0.0
  3
*Paper_Space
  1

  0
ENDBLK
  5
1D
330
1B
100
AcDbEntity
 67
     1
  8
0
100
AcDbBlockEnd
  0
BLOCK
  5
24
330
23
100
AcDbEntity
  8
0
100
AcDbBlockBegin
  2
*Paper_Space0
 70
     0
 10
0.0
 20
0.0
 30
0.0
  3
*Paper_Space0
  1

  0
ENDBLK
  5
25
330
23
100
AcDbEntity
  8
0
100
AcDbBlockEnd
  0
BLOCK
  5
89
330
88
100
AcDbEntity
  8
0
100
AcDbBlockBegin
  2
SW_CENTERMARKSYMBOL_0
 70
     0
 10
0.0
 20
0.0
 30
0.0
  3
SW_CENTERMARKSYMBOL_0
  1

  0
LINE
  5
8B
330
88
100
AcDbEntity
  8
FORMAT
 62
     0
100
AcDbLine
 10
0.0
 20
0.0
 30
0.0
 11
0.0
 21
2.5
 31
0.0
  0
LINE
  5
8C
330
88
100
AcDbEntity
  8
FORMAT
 62
     0
100
AcDbLine
 10
0.0
 20
0.0
 30
0.0
 11
-2.5
 21
0.0
 31
0.0
  0
LINE
  5
8D
330
88
100
AcDbEntity
  8
FORMAT
 62
     0
100
AcDbLine
 10
0.0
 20
0.0
 30
0.0
 11
0.0
 21
-2.5
 31
0.0
  0
LINE
  5
8E
330
88
100
AcDbEntity
  8
FORMAT
 62
     0
100
AcDbLine
 10
0.0
 20
0.0
 30
0.0
 11
2.5
 21
0.0
 31
0.0
  0
LINE
  5
8F
330
88
100
AcDbEntity
  8
FORMAT
 62
     0
100
AcDbLine
 10
0.0
 20
5.0
 30
0.0
 11
0.0
 21
92.5
 31
0.0
  0
LINE
  5
90
330
88
100
AcDbEntity
  8
FORMAT
 62
     0
100
AcDbLine
 10
-5.0
 20
0.0
 30
0.0
 11
-92.5
 21
0.0
 31
0.0
  0
LINE
  5
91
330
88
100
AcDbEntity
  8
FORMAT
 62
     0
100
AcDbLine
 10
0.0
 20
-5.0
 30
0.0
 11
0.0
 21
-92.5
 31
0.0
  0
LINE
  5
92
330
88
100
AcDbEntity
  8
FORMAT
 62
     0
100
AcDbLine
 10
5.0
 20
0.0
 30
0.0
 11
92.5
 21
0.0
 31
0.0
  0
ENDBLK
  5
8A
330
88
100
AcDbEntity
  8
0
100
AcDbBlockEnd
  0
BLOCK
  5
9F
330
9E
100
AcDbEntity
  8
0
100
AcDbBlockBegin
  2
SW_CENTERMARKSYMBOL_1
 70
     0
 10
0.0
 20
0.0
 30
0.0
  3
SW_CENTERMARKSYMBOL_1
  1

  0
LINE
  5
A1
330
9E
100
AcDbEntity
  8
FORMAT
 62
     0
100
AcDbLine
 10
0.0
 20
0.0
 30
0.0
 11
0.0
 21
2.5
 31
0.0
  0
LINE
  5
A2
330
9E
100
AcDbEntity
  8
FORMAT
 62
     0
100
AcDbLine
 10
0.0
 20
0.0
 30
0.0
 11
-2.5
 21
0.0
 31
0.0
  0
LINE
  5
A3
330
9E
100
AcDbEntity
  8
FORMAT
 62
     0
100
AcDbLine
 10
0.0
 20
0.0
 30
0.0
 11
0.0
 21
-2.5
 31
0.0
  0
LINE
  5
A4
330
9E
100
AcDbEntity
  8
FORMAT
 62
     0
100
AcDbLine
 10
0.0
 20
0.0
 30
0.0
 11
2.5
 21
0.0
 31
0.0
  0
LINE
  5
A5
330
9E
100
AcDbEntity
  8
FORMAT
 62
     0
100
AcDbLine
 10
0.0
 20
5.0
 30
0.0
 11
0.0
 21
92.5
 31
0.0
  0
LINE
  5
A6
330
9E
100
AcDbEntity
  8
FORMAT
 62
     0
100
AcDbLine
 10
-5.0
 20
0.0
 30
0.0
 11
-92.5
 21
0.0
 31
0.0
  0
LINE
  5
A7
330
9E
100
AcDbEntity
  8
FORMAT
 62
     0
100
AcDbLine
 10
0.0
 20
-5.0
 30
0.0
 11
0.0
 21
-92.5
 31
0.0
  0
LINE
  5
A8
330
9E
100
AcDbEntity
  8
FORMAT
 62
     0
100
AcDbLine
 10
5.0
 20
0.0
 30
0.0
 11
92.5
 21
0.0
 31
0.0
  0
ENDBLK
  5
A0
330
9E
100
AcDbEntity
  8
0
100
AcDbBlockEnd
  0
ENDSEC
  0
SECTION
  2
ENTITIES
  0
LINE
  5
83
330
1F
100
AcDbEntity
  8
0
  6
Continuous
 62
     7
370
    25
100
AcDbLine
 10
55.622250276
 20
21.0639451852
 30
0.0
 11
280.622250276
 21
21.0639451852
 31
0.0
  0
LINE
  5
84
330
1F
100
AcDbEntity
  8
0
  6
Continuous
 62
     7
370
    25
100
AcDbLine
 10
280.622250276
 20
201.0639451852
 30
0.0
 11
55.622250276
 21
201.0639451852
 31
0.0
  0
CIRCLE
  5
85
330
1F
100
AcDbEntity
  8
0
  6
Continuous
 62
     7
370
    25
100
AcDbCircle
 10
55.622250276
 20
111.0639451852
 30
0.0
 40
73.6
  0
CIRCLE
  5
86
330
1F
100
AcDbEntity
  8
0
  6
Continuous
 62
     7
370
    25
100
AcDbCircle
 10
55.622250276
 20
111.0639451852
 30
0.0
 40
90.0
  0
LINE
  5
87
330
1F
100
AcDbEntity
  8
0
  6
Continuous
 62
     7
370
    25
100
AcDbLine
 10
280.622250276
 20
201.0639451852
 30
0.0
 11
280.622250276
 21
21.0639451852
 31
0.0
  0
INSERT
  5
93
330
1F
100
AcDbEntity
  8
FORMAT
 62
     7
100
AcDbBlockReference
  2
SW_CENTERMARKSYMBOL_0
 10
55.622250276
 20
111.0639451852
 30
0.0
  0
LINE
  5
94
330
1F
100
AcDbEntity
  8
0
  6
Continuous
 62
     7
370
    25
100
AcDbLine
 10
-359.6345836134
 20
201.0639451852
 30
0.0
 11
-588.6345836134
 21
201.0639451852
 31
0.0
  0
LINE
  5
95
330
1F
100
AcDbEntity
  8
0
  6
Continuous
 62
     7
370
    25
100
AcDbLine
 10
-130.6345836134
 20
201.0639451852
 30
0.0
 11
-359.6345836134
 21
201.0639451852
 31
0.0
  0
LINE
  5
96
330
1F
100
AcDbEntity
  8
0
  6
Continuous
 62
     7
370
    25
100
AcDbLine
 10
-359.6345836134
 20
21.0639451852
 30
0.0
 11
-130.6345836134
 21
21.0639451852
 31
0.0
  0
LINE
  5
97
330
1F
100
AcDbEntity
  8
0
  6
Continuous
 62
     7
370
    25
100
AcDbLine
 10
-588.6345836134
 20
21.0639451852
 30
0.0
 11
-359.6345836134
 21
21.0639451852
 31
0.0
  0
CIRCLE
  5
98
330
1F
100
AcDbEntity
  8
0
  6
Continuous
 62
     7
370
    25
100
AcDbCircle
 10
-359.6345836134
 20
111.0639451852
 30
0.0
 40
73.59999999999991
  0
CIRCLE
  5
99
330
1F
100
AcDbEntity
  8
0
  6
Continuous
 62
     7
370
    25
100
AcDbCircle
 10
-359.6345836134
 20
111.0639451852
 30
0.0
 40
89.99999999999994
  0
LINE
  5
9A
330
1F
100
AcDbEntity
  8
0
  6
Continuous
 62
     7
370
    25
100
AcDbLine
 10
-588.6345836134
 20
111.0639451852
 30
0.0
 11
-588.6345836134
 21
201.0639451852
 31
0.0
  0
LINE
  5
9B
330
1F
100
AcDbEntity
  8
0
  6
Continuous
 62
     7
370
    25
100
AcDbLine
 10
-588.6345836134
 20
21.0639451852
 30
0.0
 11
-588.6345836134
 21
111.0639451852
 31
0.0
  0
LINE
  5
9C
330
1F
100
AcDbEntity
  8
0
  6
Continuous
 62
     7
370
    25
100
AcDbLine
 10
-130.6345836134
 20
111.0639451852
 30
0.0
 11
-130.6345836134
 21
201.0639451852
 31
0.0
  0
LINE
  5
9D
330
1F
100
AcDbEntity
  8
0
  6
Continuous
 62
     7
370
    25
100
AcDbLine
 10
-130.6345836134
 20
21.0639451852
 30
0.0
 11
-130.6345836134
 21
111.0639451852
 31
0.0
  0
INSERT
  5
A9
330
1F
100
AcDbEntity
  8
FORMAT
 62
     7
100
AcDbBlockReference
  2
SW_CENTERMARKSYMBOL_1
 10
-359.6345836134
 20
111.0639451852
 30
0.0
  0
LINE
  5
AA
330
1F
100
AcDbEntity
  8
0
  6
Continuous
 62
     7
370
    25
100
AcDbLine
 10
145.622250276
 20
592.5045294911
 30
0.0
 11
145.622250276
 21
731.5045294911
 31
0.0
  0
LINE
  5
AB
330
1F
100
AcDbEntity
  8
0
  6
Continuous
 62
     7
370
    25
100
AcDbLine
 10
145.622250276
 20
273.5045294911
 30
0.0
 11
145.622250276
 21
412.5045294911
 31
0.0
  0
LINE
  5
AC
330
1F
100
AcDbEntity
  8
0
  6
Continuous
 62
     7
370
    25
100
AcDbLine
 10
-34.377749724
 20
731.5045294911
 30
0.0
 11
-34.377749724
 21
273.5045294911
 31
0.0
  0
LINE
  5
AD
330
1F
100
AcDbEntity
  8
0
  6
Continuous
 62
     7
370
    25
100
AcDbLine
 10
145.622250276
 20
412.5045294911
 30
0.0
 11
280.622250276
 21
412.5045294911
 31
0.0
  0
LINE
  5
AE
330
1F
100
AcDbEntity
  8
0
  6
Continuous
 62
     7
370
    25
100
AcDbLine
 10
280.622250276
 20
592.5045294911
 30
0.0
 11
145.622250276
 21
592.5045294911
 31
0.0
  0
LINE
  5
AF
330
1F
100
AcDbEntity
  8
0
  6
Continuous
 62
     7
370
    25
100
AcDbLine
 10
145.622250276
 20
592.5045294911
 30
0.0
 11
55.622250276
 21
502.5045294911
 31
0.0
  0
LINE
  5
B0
330
1F
100
AcDbEntity
  8
0
  6
Continuous
 62
     7
370
    25
100
AcDbLine
 10
55.622250276
 20
502.5045294911
 30
0.0
 11
145.622250276
 21
412.5045294911
 31
0.0
  0
LINE
  5
B1
330
1F
100
AcDbEntity
  8
0
  6
Continuous
 62
     7
370
    25
100
AcDbLine
 10
-34.377749724
 20
731.5045294911
 30
0.0
 11
145.622250276
 21
731.5045294911
 31
0.0
  0
LINE
  5
B2
330
1F
100
AcDbEntity
  8
0
  6
Continuous
 62
     7
370
    25
100
AcDbLine
 10
-34.377749724
 20
273.5045294911
 30
0.0
 11
145.622250276
 21
273.5045294911
 31
0.0
  0
LINE
  5
B3
330
1F
100
AcDbEntity
  8
0
  6
Continuous
 62
     7
370
    25
100
AcDbLine
 10
280.622250276
 20
592.5045294911
 30
0.0
 11
280.622250276
 21
412.5045294911
 31
0.0
  0
LINE
  5
B4
330
1F
100
AcDbEntity
  8
0
  6
Continuous
 62
     7
370
    25
100
AcDbLine
 10
651.3369420689
 20
21.0639451852
 30
0.0
 11
880.3369420689
 21
21.0639451852
 31
0.0
  0
LINE
  5
B5
330
1F
100
AcDbEntity
  8
0
  6
Continuous
 62
     7
370
    25
100
AcDbLine
 10
422.3369420689
 20
21.0639451852
 30
0.0
 11
651.3369420689
 21
21.0639451852
 31
0.0
  0
LINE
  5
B6
330
1F
100
AcDbEntity
  8
0
  6
Continuous
 62
     7
370
    25
100
AcDbLine
 10
651.3369420689
 20
201.0639451852
 30
0.0
 11
422.3369420689
 21
201.0639451852
 31
0.0
  0
LINE
  5
B7
330
1F
100
AcDbEntity
  8
0
  6
Continuous
 62
     7
370
    25
100
AcDbLine
 10
880.3369420689
 20
201.0639451852
 30
0.0
 11
651.3369420689
 21
201.0639451852
 31
0.0
  0
LINE
  5
B8
330
1F
100
AcDbEntity
  8
0
  6
Continuous
 62
     7
370
    25
100
AcDbLine
 10
880.3369420689
 20
201.0639451852
 30
0.0
 11
880.3369420689
 21
21.0639451852
 31
0.0
  0
LINE
  5
B9
330
1F
100
AcDbEntity
  8
0
  6
Continuous
 62
     7
370
    25
100
AcDbLine
 10
422.3369420689
 20
201.0639451852
 30
0.0
 11
422.3369420689
 21
21.0639451852
 31
0.0
  0
LINE
  5
BA
330
1F
100
AcDbEntity
  8
0
  6
Continuous
 62
     7
370
    25
100
AcDbLine
 10
-34.377749724
 20
-78.7770358114
 30
0.0
 11
-34.377749724
 21
-536.7770358114
 31
0.0
  0
LINE
  5
BB
330
1F
100
AcDbEntity
  8
0
  6
Continuous
 62
     7
370
    25
100
AcDbLine
 10
145.622250276
 20
-217.7770358114
 30
0.0
 11
145.622250276
 21
-78.7770358114
 31
0.0
  0
LINE
  5
BC
330
1F
100
AcDbEntity
  8
0
  6
Continuous
 62
     7
370
    25
100
AcDbLine
 10
145.622250276
 20
-536.7770358114
 30
0.0
 11
145.622250276
 21
-397.7770358114
 31
0.0
  0
LINE
  5
BD
330
1F
100
AcDbEntity
  8
0
  6
Continuous
 62
     7
370
    25
100
AcDbLine
 10
145.622250276
 20
-397.7770358114
 30
0.0
 11
280.622250276
 21
-397.7770358114
 31
0.0
  0
LINE
  5
BE
330
1F
100
AcDbEntity
  8
0
  6
Continuous
 62
     7
370
    25
100
AcDbLine
 10
280.622250276
 20
-217.7770358114
 30
0.0
 11
145.622250276
 21
-217.7770358114
 31
0.0
  0
LINE
  5
BF
330
1F
100
AcDbEntity
  8
0
  6
Continuous
 62
     7
370
    25
100
AcDbLine
 10
55.622250276
 20
-307.7770358114
 30
0.0
 11
145.622250276
 21
-397.7770358114
 31
0.0
  0
LINE
  5
C0
330
1F
100
AcDbEntity
  8
0
  6
Continuous
 62
     7
370
    25
100
AcDbLine
 10
145.622250276
 20
-217.7770358114
 30
0.0
 11
55.622250276
 21
-307.7770358114
 31
0.0
  0
LINE
  5
C1
330
1F
100
AcDbEntity
  8
0
  6
Continuous
 62
     7
370
    25
100
AcDbLine
 10
145.622250276
 20
-536.7770358114
 30
0.0
 11
-34.377749724
 21
-536.7770358114
 31
0.0
  0
LINE
  5
C2
330
1F
100
AcDbEntity
  8
0
  6
Continuous
 62
     7
370
    25
100
AcDbLine
 10
145.622250276
 20
-78.7770358114
 30
0.0
 11
-34.377749724
 21
-78.7770358114
 31
0.0
  0
LINE
  5
C3
330
1F
100
AcDbEntity
  8
0
  6
Continuous
 62
     7
370
    25
100
AcDbLine
 10
280.622250276
 20
-217.7770358114
 30
0.0
 11
280.622250276
 21
-397.7770358114
 31
0.0
  0
LINE
  5
C4
330
1F
100
AcDbEntity
  8
0
  6
Continuous
 62
     7
370
    25
100
AcDbLine
 10
625.9480243179
 20
-204.0082724466
 30
0.0
 11
509.0169143948
 21
-136.5053795274
 31
0.0
  0
LINE
  5
C5
330
1F
100
AcDbEntity
  8
0
  6
Continuous
 62
     7
370
    25
100
AcDbLine
 10
832.8718201783
 20
-323.4628371348
 30
0.0
 11
805.9626536323
 21
-307.9285059454
 31
0.0
  0
LINE
  5
C6
330
1F
100
AcDbEntity
  8
0
  6
Continuous
 62
     7
370
    25
100
AcDbLine
 10
419.0242284576
 20
-292.394174756
 30
0.0
 11
742.879134241
 21
-479.3516323634
 31
0.0
  0
LINE
  5
C7
330
1F
100
AcDbEntity
  8
0
  6
Continuous
 62
     7
370
    25
100
AcDbLine
 10
715.9407102552
 20
-359.8970676751
 30
0.0
 11
830.0433930535
 21
-294.0269909796
 31
0.0
  0
LINE
  5
C8
330
1F
100
AcDbEntity
  8
0
  6
Continuous
 62
     7
370
    25
100
AcDbLine
 10
740.0507071163
 20
-138.1381957511
 30
0.0
 11
625.9480243179
 21
-204.0082724466
 31
0.0
  0
LINE
  5
C9
330
1F
100
AcDbEntity
  8
0
  6
Continuous
 62
     7
370
    25
100
AcDbLine
 10
625.9480243179
 20
-204.0082724466
 30
0.0
 11
625.9480243179
 21
-381.4171790151
 31
0.0
  0
ELLIPSE
  5
CA
330
1F
100
AcDbEntity
  8
0
  6
Continuous
 62
     7
370
    25
100
AcDbEllipse
 10
625.9480243179
 20
-307.9285059454
 30
0.0
 11
127.2792206135784
 21
2.273736754432321E-13
 31
0.0
210
0.0
220
0.0
230
1.0
 40
0.5773815452
 41
4.712388980384697
 42
5.49770587972005
  0
LWPOLYLINE
  5
CB
330
1F
100
AcDbEntity
  8
0
  6
Continuous
 62
     7
370
    25
100
AcDbPolyline
 90
      101
 70
   128
 43
0.0
 10
527.660181733
 20
-177.7114121097
 10
527.5346034991
 20
-173.1695149194
 10
527.1583643975
 20
-168.790532065
 10
526.5329492719
 20
-164.5917453912
 10
525.6608263502
 20
-160.5897255907
 10
524.545437503
 20
-156.8002668074
 10
523.1911846606
 20
-153.2383243038
 10
521.6034124402
 20
-149.9179554397
 10
519.7883870534
 20
-146.8522641941
 10
517.7532715763
 20
-144.0533494497
 10
515.5060976798
 20
-141.5322572443
 10
513.0557339327
 20
-139.2989371772
 10
510.4118508012
 20
-137.3622031422
 10
507.5848824842
 20
-135.7296985438
 10
504.585985734
 20
-134.4078661319
 10
501.4269958262
 20
-133.4019225751
 10
498.1203798506
 20
-132.715837873
 10
494.6791875099
 20
-132.3523196885
 10
491.1169996181
 20
-132.3128026618
 10
487.4478745034
 20
-132.5974427486
 10
483.6862925264
 20
-133.2051166044
 10
479.8470989326
 20
-134.1334260182
 10
475.9454452652
 20
-135.3787073769
 10
471.9967295687
 20
-136.9360461238
 10
468.01653562
 20
-138.7992961544
 10
464.0205714262
 20
-140.961104072
 10
460.0246072324
 20
-143.4129382084
 10
456.0444132837
 20
-146.1451222945
 10
452.0956975872
 20
-149.1468736478
 10
448.1940439198
 20
-152.4063457271
 10
444.354850326
 20
-155.9106748853
 10
440.593268349
 20
-159.6460311361
 10
436.9241432343
 20
-163.597672735
 10
433.3619553425
 20
-167.7500043578
 10
429.9207630018
 20
-172.0866386487
 10
426.6141470262
 20
-176.5904608934
 10
423.4551571184
 20
-181.243696563
 10
420.4562603683
 20
-186.0279814623
 10
417.6292920512
 20
-190.9244342044
 10
414.9854089197
 20
-195.9137307274
 10
412.5350451726
 20
-200.9761805572
 10
410.2878712761
 20
-206.0918045173
 10
408.252755799
 20
-211.240413577
 10
406.4377304122
 20
-216.4016885284
 10
404.8499581919
 20
-221.5552601773
 10
403.4957053495
 20
-226.6807897308
 10
402.3803165023
 20
-231.7580490655
 10
401.5081935805
 20
-236.7670005583
 10
400.8827784549
 20
-241.687876166
 10
400.5065393533
 20
-246.5012554408
 10
400.3809611194
 20
-251.1881421737
 10
400.5065393533
 20
-255.730039364
 10
400.8827784549
 20
-260.1090222184
 10
401.5081935805
 20
-264.3078088922
 10
402.3803165023
 20
-268.3098286927
 10
403.4957053495
 20
-272.099287476
 10
404.8499581919
 20
-275.6612299796
 10
406.4377304122
 20
-278.9815988437
 10
408.252755799
 20
-282.0472900893
 10
410.2878712761
 20
-284.8462048337
 10
412.5350451726
 20
-287.3672970391
 10
414.9854089197
 20
-289.6006171062
 10
417.6292920512
 20
-291.5373511412
 10
420.4562603683
 20
-293.1698557396
 10
423.4551571184
 20
-294.4916881515
 10
426.6141470262
 20
-295.4976317083
 10
429.9207630018
 20
-296.1837164104
 10
433.3619553425
 20
-296.5472345949
 10
436.9241432343
 20
-296.5867516216
 10
440.593268349
 20
-296.3021115348
 10
444.354850326
 20
-295.694437679
 10
448.1940439198
 20
-294.7661282651
 10
452.0956975872
 20
-293.5208469065
 10
456.0444132837
 20
-291.9635081596
 10
460.0246072324
 20
-290.100258129
 10
464.0205714262
 20
-287.9384502114
 10
468.01653562
 20
-285.486616075
 10
471.9967295687
 20
-282.7544319889
 10
475.9454452652
 20
-279.7526806356
 10
479.8470989326
 20
-276.4932085563
 10
483.6862925264
 20
-272.9888793981
 10
487.4478745034
 20
-269.2535231473
 10
491.1169996181
 20
-265.3018815484
 10
494.6791875099
 20
-261.1495499256
 10
498.1203798506
 20
-256.8129156347
 10
501.4269958262
 20
-252.30909339
 10
504.585985734
 20
-247.6558577204
 10
507.5848824842
 20
-242.8715728211
 10
510.4118508012
 20
-237.975120079
 10
513.0557339327
 20
-232.985823556
 10
515.5060976798
 20
-227.9233737262
 10
517.7532715763
 20
-222.8077497661
 10
519.7883870534
 20
-217.6591407064
 10
521.6034124402
 20
-212.497865755
 10
523.1911846606
 20
-207.3442941061
 10
524.545437503
 20
-202.2187645526
 10
525.6608263502
 20
-197.1415052179
 10
526.5329492719
 20
-192.1325537251
 10
527.1583643975
 20
-187.2116781173
 10
527.5346034991
 20
-182.3982988426
 10
527.660181733
 20
-177.7114121097
  0
LWPOLYLINE
  5
CC
330
1F
100
AcDbEntity
  8
0
  6
Continuous
 62
     7
370
    25
100
AcDbPolyline
 90
       14
 70
   128
 43
0.0
 10
851.5150875164
 20
-364.6688697171
 10
851.3895092826
 20
-360.1269725268
 10
851.0132701809
 20
-355.7479896724
 10
850.3878550554
 20
-351.5492029986
 10
849.5157321336
 20
-347.5471831981
 10
848.4003432864
 20
-343.7577244148
 10
847.046090444
 20
-340.1957819112
 10
845.4583182236
 20
-336.8754130471
 10
843.6432928369
 20
-333.8097218015
 10
841.6081773597
 20
-331.0108070571
 10
839.3610034632
 20
-328.4897148517
 10
836.9106397161
 20
-326.2563947846
 10
834.2667565846
 20
-324.3196607496
 10
832.8718201783
 20
-323.4628371348
  0
LWPOLYLINE
  5
CD
330
1F
100
AcDbEntity
  8
0
  6
Continuous
 62
     7
370
    25
100
AcDbPolyline
 90
       39
 70
   128
 43
0.0
 10
742.879134241
 20
-479.3516323634
 10
744.3111661517
 20
-480.127313347
 10
747.3100629018
 20
-481.4491457589
 10
750.4690528097
 20
-482.4550893157
 10
753.7756687853
 20
-483.1411740178
 10
757.216861126
 20
-483.5046922023
 10
760.7790490178
 20
-483.544209229
 10
764.4481741324
 20
-483.2595691422
 10
768.2097561095
 20
-482.6518952864
 10
772.0489497032
 20
-481.7235858725
 10
775.9506033706
 20
-480.4783045139
 10
779.8993190671
 20
-478.920965767
 10
783.8795130158
 20
-477.0577157364
 10
787.8754772097
 20
-474.8959078188
 10
791.8714414035
 20
-472.4440736824
 10
795.8516353522
 20
-469.7118895963
 10
799.8003510487
 20
-466.710138243
 10
803.7020047161
 20
-463.4506661637
 10
807.5411983098
 20
-459.9463370055
 10
811.3027802869
 20
-456.2109807547
 10
814.9719054016
 20
-452.2593391558
 10
818.5340932933
 20
-448.107007533
 10
821.9752856341
 20
-443.7703732421
 10
825.2819016096
 20
-439.2665509974
 10
828.4408915175
 20
-434.6133153278
 10
831.4397882676
 20
-429.8290304285
 10
834.2667565846
 20
-424.9325776864
 10
836.9106397161
 20
-419.9432811634
 10
839.3610034632
 20
-414.8808313336
 10
841.6081773597
 20
-409.7652073735
 10
843.6432928369
 20
-404.6165983138
 10
845.4583182236
 20
-399.4553233624
 10
847.046090444
 20
-394.3017517135
 10
848.4003432864
 20
-389.17622216
 10
849.5157321336
 20
-384.0989628253
 10
850.3878550554
 20
-379.0900113325
 10
851.0132701809
 20
-374.1691357247
 10
851.3895092826
 20
-369.35575645
 10
851.5150875164
 20
-364.6688697171
  0
LWPOLYLINE
  5
CE
330
1F
100
AcDbEntity
  8
0
  6
Continuous
 62
     7
370
    25
100
AcDbPolyline
 90
       92
 70
   128
 43
0.0
 10
516.0636305215
 20
-184.4059586266
 10
515.9396260831
 20
-180.3313562044
 10
515.5682037054
 20
-176.4193435954
 10
514.9511333853
 20
-172.6885633212
 10
514.0913557437
 20
-169.1567942488
 10
512.9929680128
 20
-165.8408668662
 10
511.6612045102
 20
-162.7565830775
 10
510.1024116956
 20
-159.9186408994
 10
508.3240179265
 20
-157.3405644188
 10
506.3344980592
 20
-155.0346393443
 10
504.1433330618
 20
-153.0118544589
 10
501.7609648334
 20
-151.2818492537
 10
499.1987464436
 20
-149.8528679915
 10
496.4688880297
 20
-148.7317204186
 10
493.5843986103
 20
-147.9237493138
 10
490.5590240911
 20
-147.4328050274
 10
487.4071817594
 20
-147.2612271325
 10
484.1438915793
 20
-147.4098332759
 10
480.7847046145
 20
-147.8779152817
 10
477.3456289208
 20
-148.6632425259
 10
473.8430532599
 20
-149.7620725665
 10
470.2936689999
 20
-151.1691689781
 10
466.7143905732
 20
-152.8778263054
 10
463.1222748716
 20
-154.8799020181
 10
459.534439962
 20
-157.1658553138
 10
455.9679835119
 20
-159.7247925839
 10
452.4399013104
 20
-162.5445193271
 10
448.9670062757
 20
-165.6115982613
 10
445.5658483344
 20
-168.9114133586
 10
442.2526355528
 20
-172.4282394974
 10
439.0431568987
 20
-176.1453173996
 10
435.9527069995
 20
-180.0449334963
 10
432.9960132563
 20
-184.1085043407
 10
430.1871656613
 20
-188.3166651675
 10
427.5395496524
 20
-192.6493621737
 10
425.0657823257
 20
-197.0859480851
 10
422.7776523089
 20
-201.6052805494
 10
420.6860635836
 20
-206.1858228893
 10
418.8009835226
 20
-210.8057467346
 10
417.1313953909
 20
-215.4430360443
 10
415.6852555362
 20
-220.075592023
 10
414.4694554735
 20
-224.6813384318
 10
413.4897890438
 20
-229.2383267916
 10
412.7509248037
 20
-233.7248409777
 10
412.2563837778
 20
-238.1195007068
 10
412.0085226794
 20
-242.4013634239
 10
412.0085226794
 20
-246.5500241033
 10
412.2563837778
 20
-250.5457124876
 10
412.7509248037
 20
-254.369387302
 10
413.4897890438
 20
-258.0028269947
 10
414.4694554735
 20
-261.4287165708
 10
415.6852555362
 20
-264.6307301065
 10
417.1313953909
 20
-267.5936085491
 10
418.8009835226
 20
-270.3032324334
 10
420.6860635836
 20
-272.7466891677
 10
422.7776523089
 20
-274.912334568
 10
425.0657823257
 20
-276.7898483476
 10
427.5395496524
 20
-278.3702832984
 10
430.1871656613
 20
-279.6461079281
 10
432.9960132563
 20
-280.6112423514
 10
435.9527069995
 20
-281.2610872632
 10
439.0431568987
 20
-281.5925458566
 10
442.2526355528
 20
-281.6040385804
 10
445.5658483344
 20
-281.2955106665
 10
448.9670062757
 20
-280.668432391
 10
452.4399013104
 20
-279.7257920675
 10
455.9679835119
 20
-278.4720818063
 10
459.534439962
 20
-276.9132761078
 10
463.1222748716
 20
-275.0568033909
 10
466.7143905732
 20
-272.9115105937
 10
470.2936689999
 20
-270.4876210133
 10
473.8430532599
 20
-267.7966855874
 10
477.3456289208
 20
-264.8515278486
 10
480.7847046145
 20
-261.6661828149
 10
484.1438915793
 20
-258.255830106
 10
487.4071817594
 20
-254.6367216054
 10
490.5590240911
 20
-250.8261040135
 10
493.5843986103
 20
-246.8421366584
 10
496.4688880297
 20
-242.7038049587
 10
499.1987464436
 20
-238.4308299497
 10
501.7609648334
 20
-234.0435743032
 10
504.1433330618
 20
-229.5629452902
 10
506.3344980592
 20
-225.0102951485
 10
508.3240179265
 20
-220.4073193292
 10
510.1024116956
 20
-215.7759531084
 10
511.6612045102
 20
-211.1382670552
 10
512.9929680128
 20
-206.5163618555
 10
514.0913557437
 20
-201.9322629926
 10
514.9511333853
 20
-197.407815785
 10
515.5682037054
 20
-192.9645812842
 10
515.9396260831
 20
-188.6237335259
 10
516.0636305215
 20
-184.4059586266
  0
LWPOLYLINE
  5
CF
330
1F
100
AcDbEntity
  8
0
  6
Continuous
 62
     7
370
    25
100
AcDbPolyline
 90
      101
 70
   128
 43
0.0
 10
848.6866603917
 20
-252.8209583974
 10
848.5610821578
 20
-248.1340716645
 10
848.1848430562
 20
-243.3206923897
 10
847.5594279306
 20
-238.399816782
 10
846.6873050088
 20
-233.3908652892
 10
845.5719161617
 20
-228.3136059545
 10
844.2176633192
 20
-223.1880764009
 10
842.6298910989
 20
-218.034504752
 10
840.8148657121
 20
-212.8732298006
 10
838.779750235
 20
-207.724620741
 10
836.5325763385
 20
-202.6089967809
 10
834.0822125914
 20
-197.546546951
 10
831.4383294599
 20
-192.557250428
 10
828.6113611428
 20
-187.6607976859
 10
825.6124643927
 20
-182.8765127867
 10
822.4534744849
 20
-178.223277117
 10
819.1468585093
 20
-173.7194548724
 10
815.7056661686
 20
-169.3828205815
 10
812.1434782768
 20
-165.2304889586
 10
808.4743531621
 20
-161.2788473598
 10
804.7127711851
 20
-157.5434911089
 10
800.8735775913
 20
-154.0391619508
 10
796.9719239239
 20
-150.7796898714
 10
793.0232082274
 20
-147.7779385181
 10
789.0430142787
 20
-145.0457544321
 10
785.0470500849
 20
-142.5939202956
 10
781.0510858911
 20
-140.432112378
 10
777.0708919424
 20
-138.5688623475
 10
773.1221762459
 20
-137.0115236006
 10
769.2205225785
 20
-135.7662422419
 10
765.3813289847
 20
-134.8379328281
 10
761.6197470077
 20
-134.2302589722
 10
757.950621893
 20
-133.9456188854
 10
754.3884340012
 20
-133.9851359121
 10
750.9472416605
 20
-134.3486540966
 10
747.6406256849
 20
-135.0347387987
 10
744.4816357771
 20
-136.0406823556
 10
741.482739027
 20
-137.3625147675
 10
738.6557707099
 20
-138.9950193658
 10
736.0118875784
 20
-140.9317534008
 10
733.5615238313
 20
-143.165073468
 10
731.3143499348
 20
-145.6861656733
 10
729.2792344577
 20
-148.4850804177
 10
727.4642090709
 20
-151.5507716633
 10
725.8764368506
 20
-154.8711405274
 10
724.5221840081
 20
-158.433083031
 10
723.406795161
 20
-162.2225418143
 10
722.5346722392
 20
-166.2245616148
 10
721.9092571136
 20
-170.4233482886
 10
721.533018012
 20
-174.8023311431
 10
721.4074397781
 20
-179.3442283333
 10
721.533018012
 20
-184.0311150662
 10
721.9092571136
 20
-188.844494341
 10
722.5346722392
 20
-193.7653699487
 10
723.406795161
 20
-198.7743214415
 10
724.5221840081
 20
-203.8515807762
 10
725.8764368506
 20
-208.9771103298
 10
727.4642090709
 20
-214.1306819787
 10
729.2792344577
 20
-219.2919569301
 10
731.3143499348
 20
-224.4405659897
 10
733.5615238313
 20
-229.5561899498
 10
736.0118875784
 20
-234.6186397797
 10
738.6557707099
 20
-239.6079363027
 10
741.482739027
 20
-244.5043890448
 10
744.4816357771
 20
-249.288673944
 10
747.6406256849
 20
-253.9419096136
 10
750.9472416605
 20
-258.4457318583
 10
754.3884340012
 20
-262.7823661492
 10
757.950621893
 20
-266.9346977721
 10
761.6197470077
 20
-270.8863393709
 10
765.3813289847
 20
-274.6216956217
 10
769.2205225785
 20
-278.1260247799
 10
773.1221762459
 20
-281.3854968593
 10
777.0708919424
 20
-284.3872482126
 10
781.0510858911
 20
-287.1194322986
 10
785.0470500849
 20
-289.5712664351
 10
789.0430142787
 20
-291.7330743527
 10
793.0232082274
 20
-293.5963243832
 10
796.9719239239
 20
-295.1536631301
 10
800.8735775913
 20
-296.3989444888
 10
804.7127711851
 20
-297.3272539026
 10
808.4743531621
 20
-297.9349277585
 10
812.1434782768
 20
-298.2195678452
 10
815.7056661686
 20
-298.1800508186
 10
819.1468585093
 20
-297.8165326341
 10
822.4534744849
 20
-297.130447932
 10
825.6124643927
 20
-296.1245043751
 10
828.6113611428
 20
-294.8026719632
 10
831.4383294599
 20
-293.1701673649
 10
834.0822125914
 20
-291.2334333299
 10
836.5325763385
 20
-289.0001132627
 10
838.779750235
 20
-286.4790210574
 10
840.8148657121
 20
-283.680106313
 10
842.6298910989
 20
-280.6144150674
 10
844.2176633193
 20
-277.2940462033
 10
845.5719161617
 20
-273.7321036997
 10
846.6873050088
 20
-269.9426449164
 10
847.5594279306
 20
-265.9406251159
 10
848.1848430562
 20
-261.741838442
 10
848.5610821578
 20
-257.3628555876
 10
848.6866603917
 20
-252.8209583974
  0
LWPOLYLINE
  5
D0
330
1F
100
AcDbEntity
  8
0
  6
Continuous
 62
     7
370
    25
100
AcDbPolyline
 90
       92
 70
   128
 43
0.0
 10
837.0901091802
 20
-246.1264118804
 10
836.9661047418
 20
-241.9086369811
 10
836.5946823641
 20
-237.5677892228
 10
835.977612044
 20
-233.124554722
 10
835.1178344024
 20
-228.6001075144
 10
834.0194466715
 20
-224.0160086515
 10
832.6876831689
 20
-219.3941034519
 10
831.1288903543
 20
-214.7564173986
 10
829.3504965852
 20
-210.1250511778
 10
827.3609767179
 20
-205.5220753586
 10
825.1698117205
 20
-200.9694252168
 10
822.7874434921
 20
-196.4887962039
 10
820.2252251022
 20
-192.1015405573
 10
817.4953666884
 20
-187.8285655483
 10
814.610877269
 20
-183.6902338487
 10
811.5855027498
 20
-179.7062664935
 10
808.4336604181
 20
-175.8956489016
 10
805.170370238
 20
-172.2765404011
 10
801.8111832732
 20
-168.8661876921
 10
798.3721075795
 20
-165.6808426584
 10
794.8695319186
 20
-162.7356849197
 10
791.3201476586
 20
-160.0447494937
 10
787.7408692319
 20
-157.6208599133
 10
784.1487535302
 20
-155.4755671161
 10
780.5609186207
 20
-153.6190943993
 10
776.9944621706
 20
-152.0602887008
 10
773.4663799691
 20
-150.8065784395
 10
769.9934849344
 20
-149.863938116
 10
766.5923269931
 20
-149.2368598405
 10
763.2791142115
 20
-148.9283319267
 10
760.0696355574
 20
-148.9398246505
 10
756.9791856582
 20
-149.2712832438
 10
754.022491915
 20
-149.9211281556
 10
751.21364432
 20
-150.8862625789
 10
748.5660283111
 20
-152.1620872087
 10
746.0922609843
 20
-153.7425221595
 10
743.8041309676
 20
-155.6200359391
 10
741.7125422423
 20
-157.7856813393
 10
739.8274621813
 20
-160.2291380737
 10
738.1578740496
 20
-162.938761958
 10
736.7117341949
 20
-165.9016404005
 10
735.4959341322
 20
-169.1036539362
 10
734.5162677025
 20
-172.5295435124
 10
733.7774034624
 20
-176.162983205
 10
733.2828624365
 20
-179.9866580194
 10
733.0350013381
 20
-183.9823464037
 10
733.0350013381
 20
-188.1310070831
 10
733.2828624365
 20
-192.4128698003
 10
733.7774034624
 20
-196.8075295294
 10
734.5162677025
 20
-201.2940437154
 10
735.4959341322
 20
-205.8510320753
 10
736.7117341949
 20
-210.456778484
 10
738.1578740496
 20
-215.0893344627
 10
739.8274621813
 20
-219.7266237724
 10
741.7125422423
 20
-224.3465476177
 10
743.8041309676
 20
-228.9270899577
 10
746.0922609843
 20
-233.446422422
 10
748.5660283111
 20
-237.8830083334
 10
751.21364432
 20
-242.2157053396
 10
754.022491915
 20
-246.4238661663
 10
756.9791856582
 20
-250.4874370108
 10
760.0696355574
 20
-254.3870531074
 10
763.2791142115
 20
-258.1041310096
 10
766.5923269931
 20
-261.6209571484
 10
769.9934849344
 20
-264.9207722458
 10
773.4663799691
 20
-267.98785118
 10
776.9944621706
 20
-270.8075779231
 10
780.5609186207
 20
-273.3665151933
 10
784.1487535302
 20
-275.652468489
 10
787.7408692319
 20
-277.6545442017
 10
791.3201476586
 20
-279.363201529
 10
794.8695319186
 20
-280.7702979405
 10
798.3721075795
 20
-281.8691279812
 10
801.8111832732
 20
-282.6544552253
 10
805.170370238
 20
-283.1225372311
 10
808.4336604181
 20
-283.2711433745
 10
811.5855027498
 20
-283.0995654796
 10
814.610877269
 20
-282.6086211932
 10
817.4953666884
 20
-281.8006500885
 10
820.2252251022
 20
-280.6795025156
 10
822.7874434921
 20
-279.2505212533
 10
825.1698117205
 20
-277.5205160482
 10
827.3609767179
 20
-275.4977311627
 10
829.3504965852
 20
-273.1918060882
 10
831.1288903543
 20
-270.6137296077
 10
832.6876831689
 20
-267.7757874296
 10
834.0194466715
 20
-264.6915036408
 10
835.1178344024
 20
-261.3755762582
 10
835.977612044
 20
-257.8438071858
 10
836.5946823641
 20
-254.1130269116
 10
836.9661047418
 20
-250.2010143026
 10
837.0901091802
 20
-246.1264118804
  0
ENDSEC
  0
SECTION
  2
OBJECTS
  0
DICTIONARY
  5
C
330
0
100
AcDbDictionary
281
     1
  3
ACAD_GROUP
350
D
  3
ACAD_LAYOUT
350
1A
  3
ACAD_MLINESTYLE
350
17
  3
ACAD_PLOTSETTINGS
350
19
  3
ACAD_PLOTSTYLENAME
350
E
  3
ACAD_SCALELIST
350
47
  3
DWGPROPS
350
D1
  0
DICTIONARY
  5
D
102
{ACAD_REACTORS
330
C
102
}
330
C
100
AcDbDictionary
281
     1
  0
DICTIONARY
  5
1A
102
{ACAD_REACTORS
330
C
102
}
330
C
100
AcDbDictionary
281
     1
  3
Layout1
350
1E
  3
Layout2
350
26
  3
Model
350
22
  0
DICTIONARY
  5
17
102
{ACAD_REACTORS
330
C
102
}
330
C
100
AcDbDictionary
281
     1
  3
Standard
350
18
  0
DICTIONARY
  5
19
102
{ACAD_REACTORS
330
C
102
}
330
C
100
AcDbDictionary
281
     1
  0
ACDBDICTIONARYWDFLT
  5
E
102
{ACAD_REACTORS
330
C
102
}
330
C
100
AcDbDictionary
281
     1
  3
Normal
350
F
100
AcDbDictionaryWithDefault
340
F
  0
DICTIONARY
  5
47
102
{ACAD_REACTORS
330
C
102
}
330
C
100
AcDbDictionary
281
     1
  3
A0
350
48
  3
A1
350
49
  3
A2
350
4A
  3
A3
350
4B
  3
A4
350
4C
  3
A5
350
4D
  3
A6
350
4E
  3
A7
350
4F
  3
A8
350
50
  3
A9
350
51
  3
B0
350
52
  3
B1
350
53
  3
B2
350
54
  3
B3
350
55
  3
B4
350
56
  3
B5
350
57
  3
B6
350
58
  3
B7
350
59
  3
B8
350
5A
  3
B9
350
5B
  3
C0
350
5C
  3
C1
350
5D
  3
C2
350
5E
  3
C3
350
5F
  3
C4
350
60
  3
C5
350
61
  3
C6
350
62
  3
C7
350
63
  3
C8
350
64
  3
C9
350
65
  3
D0
350
66
  3
D1
350
67
  3
D2
350
68
  0
XRECORD
  5
D1
102
{ACAD_REACTORS
330
C
102
}
330
C
100
AcDbXrecord
280
     1
  1
DWGPROPS COOKIE
  2

  3

  4

  6

  7

  8
b.kav
  9

300
=
301
=
302
=
303
=
304
=
305
=
306
=
307
=
308
=
309
=
 40
0.0
 41
2460608.405350151
 42
2460608.405350232
  1

 90
        0
  0
LAYOUT
  5
1E
102
{ACAD_REACTORS
330
1A
102
}
330
1A
100
AcDbPlotSettings
  1

  2
none_device
  4

  6

 40
0.0
 41
0.0
 42
0.0
 43
0.0
 44
0.0
 45
0.0
 46
0.0
 47
0.0
 48
0.0
 49
0.0
140
0.0
141
0.0
142
1.0
143
1.0
 70
   688
 72
     1
 73
     0
 74
     5
  7

 75
    16
147
1.0
148
0.0
149
0.0
100
AcDbLayout
  1
Layout1
 70
     1
 71
     1
 10
0.0
 20
0.0
 11
420.0
 21
297.0
 12
0.0
 22
0.0
 32
0.0
 14
1.0000000000E+20
 24
1.0000000000E+20
 34
1.0000000000E+20
 15
-1.0000000000E+20
 25
-1.0000000000E+20
 35
-1.0000000000E+20
146
0.0
 13
0.0
 23
0.0
 33
0.0
 16
1.0
 26
0.0
 36
0.0
 17
0.0
 27
1.0
 37
0.0
 76
     0
330
1B
  0
LAYOUT
  5
26
102
{ACAD_REACTORS
330
1A
102
}
330
1A
100
AcDbPlotSettings
  1

  2
none_device
  4

  6

 40
0.0
 41
0.0
 42
0.0
 43
0.0
 44
0.0
 45
0.0
 46
0.0
 47
0.0
 48
0.0
 49
0.0
140
0.0
141
0.0
142
1.0
143
1.0
 70
   688
 72
     1
 73
     0
 74
     5
  7

 75
    16
147
1.0
148
0.0
149
0.0
100
AcDbLayout
  1
Layout2
 70
     1
 71
     2
 10
0.0
 20
0.0
 11
0.0
 21
0.0
 12
0.0
 22
0.0
 32
0.0
 14
0.0
 24
0.0
 34
0.0
 15
0.0
 25
0.0
 35
0.0
146
0.0
 13
0.0
 23
0.0
 33
0.0
 16
1.0
 26
0.0
 36
0.0
 17
0.0
 27
1.0
 37
0.0
 76
     0
330
23
  0
LAYOUT
  5
22
102
{ACAD_REACTORS
330
1A
102
}
330
1A
100
AcDbPlotSettings
  1

  2
none_device
  4
Letter_(8.50_x_11.00_Inches)
  6

 40
6.35
 41
6.35
 42
6.35000508
 43
6.35000508
 44
215.9
 45
279.4
 46
0.0
 47
0.0
 48
0.0
 49
0.0
140
0.0
141
0.0
142
1.0
143
1.0
 70
  1712
 72
     1
 73
     0
 74
     0
  7

 75
     0
147
1.0
148
0.0
149
0.0
100
AcDbLayout
  1
Model
 70
     1
 71
     0
 10
0.0
 20
0.0
 11
279.4
 21
215.9
 12
0.0
 22
0.0
 32
0.0
 14
0.0
 24
0.0
 34
0.0
 15
279.4
 25
215.9
 35
0.0
146
0.0
 13
0.0
 23
0.0
 33
0.0
 16
1.0
 26
0.0
 36
0.0
 17
0.0
 27
1.0
 37
0.0
 76
     0
330
1F
331
29
  0
MLINESTYLE
  5
18
102
{ACAD_REACTORS
330
17
102
}
330
17
100
AcDbMlineStyle
  2
Standard
 70
     0
  3

 62
   256
 51
90.0
 52
90.0
 71
     2
 49
0.5
 62
   256
  6
BYLAYER
 49
-0.5
 62
   256
  6
BYLAYER
  0
ACDBPLACEHOLDER
  5
F
102
{ACAD_REACTORS
330
E
102
}
330
E
  0
SCALE
  5
48
102
{ACAD_REACTORS
330
47
102
}
330
47
100
AcDbScale
 70
     0
300
1:1
140
1.0
141
1.0
290
     1
  0
SCALE
  5
49
102
{ACAD_REACTORS
330
47
102
}
330
47
100
AcDbScale
 70
     0
300
1:2
140
1.0
141
2.0
290
     0
  0
SCALE
  5
4A
102
{ACAD_REACTORS
330
47
102
}
330
47
100
AcDbScale
 70
     0
300
1:4
140
1.0
141
4.0
290
     0
  0
SCALE
  5
4B
102
{ACAD_REACTORS
330
47
102
}
330
47
100
AcDbScale
 70
     0
300
1:5
140
1.0
141
5.0
290
     0
  0
SCALE
  5
4C
102
{ACAD_REACTORS
330
47
102
}
330
47
100
AcDbScale
 70
     0
300
1:8
140
1.0
141
8.0
290
     0
  0
SCALE
  5
4D
102
{ACAD_REACTORS
330
47
102
}
330
47
100
AcDbScale
 70
     0
300
1:10
140
1.0
141
10.0
290
     0
  0
SCALE
  5
4E
102
{ACAD_REACTORS
330
47
102
}
330
47
100
AcDbScale
 70
     0
300
1:16
140
1.0
141
16.0
290
     0
  0
SCALE
  5
4F
102
{ACAD_REACTORS
330
47
102
}
330
47
100
AcDbScale
 70
     0
300
1:20
140
1.0
141
20.0
290
     0
  0
SCALE
  5
50
102
{ACAD_REACTORS
330
47
102
}
330
47
100
AcDbScale
 70
     0
300
1:30
140
1.0
141
30.0
290
     0
  0
SCALE
  5
51
102
{ACAD_REACTORS
330
47
102
}
330
47
100
AcDbScale
 70
     0
300
1:40
140
1.0
141
40.0
290
     0
  0
SCALE
  5
52
102
{ACAD_REACTORS
330
47
102
}
330
47
100
AcDbScale
 70
     0
300
1:50
140
1.0
141
50.0
290
     0
  0
SCALE
  5
53
102
{ACAD_REACTORS
330
47
102
}
330
47
100
AcDbScale
 70
     0
300
1:100
140
1.0
141
100.0
290
     0
  0
SCALE
  5
54
102
{ACAD_REACTORS
330
47
102
}
330
47
100
AcDbScale
 70
     0
300
2:1
140
2.0
141
1.0
290
     0
  0
SCALE
  5
55
102
{ACAD_REACTORS
330
47
102
}
330
47
100
AcDbScale
 70
     0
300
4:1
140
4.0
141
1.0
290
     0
  0
SCALE
  5
56
102
{ACAD_REACTORS
330
47
102
}
330
47
100
AcDbScale
 70
     0
300
8:1
140
8.0
141
1.0
290
     0
  0
SCALE
  5
57
102
{ACAD_REACTORS
330
47
102
}
330
47
100
AcDbScale
 70
     0
300
10:1
140
10.0
141
1.0
290
     0
  0
SCALE
  5
58
102
{ACAD_REACTORS
330
47
102
}
330
47
100
AcDbScale
 70
     0
300
100:1
140
100.0
141
1.0
290
     0
  0
SCALE
  5
59
102
{ACAD_REACTORS
330
47
102
}
330
47
100
AcDbScale
 70
     0
300
1/128" = 1'-0"
140
0.0078125
141
12.0
290
     0
  0
SCALE
  5
5A
102
{ACAD_REACTORS
330
47
102
}
330
47
100
AcDbScale
 70
     0
300
1/64" = 1'-0"
140
0.015625
141
12.0
290
     0
  0
SCALE
  5
5B
102
{ACAD_REACTORS
330
47
102
}
330
47
100
AcDbScale
 70
     0
300
1/32" = 1'-0"
140
0.03125
141
12.0
290
     0
  0
SCALE
  5
5C
102
{ACAD_REACTORS
330
47
102
}
330
47
100
AcDbScale
 70
     0
300
1/16" = 1'-0"
140
0.0625
141
12.0
290
     0
  0
SCALE
  5
5D
102
{ACAD_REACTORS
330
47
102
}
330
47
100
AcDbScale
 70
     0
300
3/32" = 1'-0"
140
0.09375
141
12.0
290
     0
  0
SCALE
  5
5E
102
{ACAD_REACTORS
330
47
102
}
330
47
100
AcDbScale
 70
     0
300
1/8" = 1'-0"
140
0.125
141
12.0
290
     0
  0
SCALE
  5
5F
102
{ACAD_REACTORS
330
47
102
}
330
47
100
AcDbScale
 70
     0
300
3/16" = 1'-0"
140
0.1875
141
12.0
290
     0
  0
SCALE
  5
60
102
{ACAD_REACTORS
330
47
102
}
330
47
100
AcDbScale
 70
     0
300
1/4" = 1'-0"
140
0.25
141
12.0
290
     0
  0
SCALE
  5
61
102
{ACAD_REACTORS
330
47
102
}
330
47
100
AcDbScale
 70
     0
300
3/8" = 1'-0"
140
0.375
141
12.0
290
     0
  0
SCALE
  5
62
102
{ACAD_REACTORS
330
47
102
}
330
47
100
AcDbScale
 70
     0
300
1/2" = 1'-0"
140
0.5
141
12.0
290
     0
  0
SCALE
  5
63
102
{ACAD_REACTORS
330
47
102
}
330
47
100
AcDbScale
 70
     0
300
3/4" = 1'-0"
140
0.75
141
12.0
290
     0
  0
SCALE
  5
64
102
{ACAD_REACTORS
330
47
102
}
330
47
100
AcDbScale
 70
     0
300
1" = 1'-0"
140
1.0
141
12.0
290
     0
  0
SCALE
  5
65
102
{ACAD_REACTORS
330
47
102
}
330
47
100
AcDbScale
 70
     0
300
1-1/2" = 1'-0"
140
1.5
141
12.0
290
     0
  0
SCALE
  5
66
102
{ACAD_REACTORS
330
47
102
}
330
47
100
AcDbScale
 70
     0
300
3" = 1'-0"
140
3.0
141
12.0
290
     0
  0
SCALE
  5
67
102
{ACAD_REACTORS
330
47
102
}
330
47
100
AcDbScale
 70
     0
300
6" = 1'-0"
140
6.0
141
12.0
290
     0
  0
SCALE
  5
68
102
{ACAD_REACTORS
330
47
102
}
330
47
100
AcDbScale
 70
     0
300
1'-0" = 1'-0"
140
12.0
141
12.0
290
     0
  0
ENDSEC
  0
EOF
